ISO-10303-21;
HEADER;
/****************************************************************
 * Generated by software with PDE/Lib inside                    *
 * PDE/Lib Version 3.2.6, created Mon Nov 19, 2001 at 18:43:38  *
 * International Technegroup Inc. (www.iti-oh.com)              *
 ****************************************************************/
FILE_DESCRIPTION((''),'2;1');
FILE_NAME('B:\\MITARBEITER\\Gembarski\\Inventor\\TEMP\\bla1\\IPT\\STP\\CR 42 V.stp','2007-01-12T10:15:32',('gembarski'),(''),'Autodesk Inventor 7','Autodesk Inventor 7','');
FILE_SCHEMA(('AUTOMOTIVE_DESIGN { 1 0 10303 214 1 1 1 1 }'));
ENDSEC;
DATA;
#5=APPLICATION_CONTEXT('automotive design');
#6=APPLICATION_PROTOCOL_DEFINITION('Draft International Standard','automotive_design',1998,#5);
#7=PRODUCT_CONTEXT('None',#5,'mechanical');
#8=PRODUCT('CR 42 V','CR 42 V','None',(#7));
#9=PRODUCT_RELATED_PRODUCT_CATEGORY('part','description',(#8));
#10=PRODUCT_DEFINITION_FORMATION('None','None',#8);
#11=PRODUCT_DEFINITION_CONTEXT('part definition',#5,'design');
#12=PRODUCT_DEFINITION('None','None',#10,#11);
#18=(NAMED_UNIT(*)PLANE_ANGLE_UNIT()SI_UNIT($,.RADIAN.));
#19=DIMENSIONAL_EXPONENTS(0.0,0.0,0.0,0.0,0.0,0.0,0.0);
#20=PLANE_ANGLE_MEASURE_WITH_UNIT(PLANE_ANGLE_MEASURE(0.017453292500000),#18);
#24=(CONVERSION_BASED_UNIT('DEGREE',#20)NAMED_UNIT(#19)PLANE_ANGLE_UNIT());
#28=(NAMED_UNIT(*)SI_UNIT($,.STERADIAN.)SOLID_ANGLE_UNIT());
#32=(LENGTH_UNIT()NAMED_UNIT(*)SI_UNIT(.MILLI.,.METRE.));
#34=UNCERTAINTY_MEASURE_WITH_UNIT(LENGTH_MEASURE(0.000001000000000),#32,'DISTANCE_ACCURACY_VALUE','');
#36=(GEOMETRIC_REPRESENTATION_CONTEXT(3)GLOBAL_UNCERTAINTY_ASSIGNED_CONTEXT((#34))GLOBAL_UNIT_ASSIGNED_CONTEXT((#24,#28,#32))REPRESENTATION_CONTEXT('None','None'));
#37=AXIS2_PLACEMENT_3D('',#38,#39,#40);
#38=CARTESIAN_POINT('',(0.0,0.0,0.0));
#39=DIRECTION('',(0.0,0.0,1.0));
#40=DIRECTION('',(1.0,0.0,0.0));
#41=SHAPE_REPRESENTATION('',(#37),#36);
#42=PRODUCT_DEFINITION_SHAPE('','',#12);
#43=SHAPE_DEFINITION_REPRESENTATION(#42,#41);
#44=CARTESIAN_POINT('',(-15.550000000000001,0.0,0.0));
#45=DIRECTION('',(1.0,0.0,0.0));
#46=DIRECTION('',(0.0,1.0,0.0));
#47=AXIS2_PLACEMENT_3D('',#44,#45,#46);
#48=CONICAL_SURFACE('',#47,3.849999999999995,44.999999999999901);
#49=CARTESIAN_POINT('',(-15.700000000000003,3.699999999999996,0.0));
#50=VERTEX_POINT('',#49);
#51=CARTESIAN_POINT('',(-15.400000000000002,3.999999999999995,0.0));
#52=VERTEX_POINT('',#51);
#53=CARTESIAN_POINT('',(-15.700000000000003,3.699999999999996,0.0));
#54=DIRECTION('',(0.707106781186550,0.707106781186545,0.0));
#55=VECTOR('',#54,0.424264068711928);
#56=LINE('',#53,#55);
#57=EDGE_CURVE('',#50,#52,#56,.T.);
#58=ORIENTED_EDGE('',*,*,#57,.F.);
#59=CARTESIAN_POINT('',(-15.700000000000003,-3.699999999999996,4.531044E-016));
#60=VERTEX_POINT('',#59);
#61=CARTESIAN_POINT('',(-15.700000000000003,0.0,0.0));
#62=DIRECTION('',(1.0,0.0,0.0));
#63=DIRECTION('',(0.0,1.0,0.0));
#64=AXIS2_PLACEMENT_3D('',#61,#62,#63);
#65=CIRCLE('',#64,3.699999999999996);
#66=EDGE_CURVE('',#50,#60,#65,.T.);
#67=ORIENTED_EDGE('',*,*,#66,.T.);
#68=CARTESIAN_POINT('',(-15.400000000000002,-3.999999999999995,4.898425E-016));
#69=VERTEX_POINT('',#68);
#70=CARTESIAN_POINT('',(-15.400000000000002,-3.999999999999995,4.898425E-016));
#71=DIRECTION('',(-0.707106781186550,0.707106781186545,-8.659275E-017));
#72=VECTOR('',#71,0.424264068711928);
#73=LINE('',#70,#72);
#74=EDGE_CURVE('',#69,#60,#73,.T.);
#75=ORIENTED_EDGE('',*,*,#74,.F.);
#76=CARTESIAN_POINT('',(-15.400000000000000,0.0,0.0));
#77=DIRECTION('',(1.0,0.0,0.0));
#78=DIRECTION('',(0.0,1.0,0.0));
#79=AXIS2_PLACEMENT_3D('',#76,#77,#78);
#80=CIRCLE('',#79,3.999999999999995);
#81=EDGE_CURVE('',#52,#69,#80,.T.);
#82=ORIENTED_EDGE('',*,*,#81,.F.);
#83=EDGE_LOOP('',(#58,#67,#75,#82));
#84=FACE_OUTER_BOUND('',#83,.T.);
#85=ADVANCED_FACE('',(#84),#48,.T.);
#86=CARTESIAN_POINT('',(-23.783012701892222,0.0,0.0));
#87=DIRECTION('',(1.0,0.0,0.0));
#88=DIRECTION('',(0.0,1.0,0.0));
#89=AXIS2_PLACEMENT_3D('',#86,#87,#88);
#90=CYLINDRICAL_SURFACE('',#89,2.0);
#91=CARTESIAN_POINT('',(-31.866025403784441,1.999999999999997,0.0));
#92=VERTEX_POINT('',#91);
#93=CARTESIAN_POINT('',(-15.700000000000003,2.000000000000003,0.0));
#94=VERTEX_POINT('',#93);
#95=CARTESIAN_POINT('',(-31.866025403784441,1.999999999999997,0.0));
#96=DIRECTION('',(1.0,0.0,0.0));
#97=VECTOR('',#96,16.166025403784438);
#98=LINE('',#95,#97);
#99=EDGE_CURVE('',#92,#94,#98,.T.);
#100=ORIENTED_EDGE('',*,*,#99,.F.);
#101=CARTESIAN_POINT('',(-31.866025403784441,-1.999999999999997,2.449213E-016));
#102=VERTEX_POINT('',#101);
#103=CARTESIAN_POINT('',(-31.866025403784441,0.0,0.0));
#104=DIRECTION('',(1.0,0.0,0.0));
#105=DIRECTION('',(0.0,1.0,0.0));
#106=AXIS2_PLACEMENT_3D('',#103,#104,#105);
#107=CIRCLE('',#106,1.999999999999997);
#108=EDGE_CURVE('',#92,#102,#107,.T.);
#109=ORIENTED_EDGE('',*,*,#108,.T.);
#110=CARTESIAN_POINT('',(-15.700000000000001,-2.000000000000003,2.449213E-016));
#111=VERTEX_POINT('',#110);
#112=CARTESIAN_POINT('',(-15.700000000000001,-2.000000000000003,2.449213E-016));
#113=DIRECTION('',(-1.0,0.0,0.0));
#114=VECTOR('',#113,16.166025403784438);
#115=LINE('',#112,#114);
#116=EDGE_CURVE('',#111,#102,#115,.T.);
#117=ORIENTED_EDGE('',*,*,#116,.F.);
#118=CARTESIAN_POINT('',(-15.700000000000003,0.0,0.0));
#119=DIRECTION('',(1.0,0.0,0.0));
#120=DIRECTION('',(0.0,1.0,0.0));
#121=AXIS2_PLACEMENT_3D('',#118,#119,#120);
#122=CIRCLE('',#121,2.000000000000003);
#123=EDGE_CURVE('',#94,#111,#122,.T.);
#124=ORIENTED_EDGE('',*,*,#123,.F.);
#125=EDGE_LOOP('',(#100,#109,#117,#124));
#126=FACE_OUTER_BOUND('',#125,.T.);
#127=ADVANCED_FACE('',(#126),#90,.T.);
#128=CARTESIAN_POINT('',(-31.933012701892221,0.0,0.0));
#129=DIRECTION('',(-1.0,0.0,0.0));
#130=DIRECTION('',(0.0,1.0,0.0));
#131=AXIS2_PLACEMENT_3D('',#128,#129,#130);
#132=CONICAL_SURFACE('',#131,2.249999999999999,75.000000000000014);
#133=CARTESIAN_POINT('',(-32.0,2.500000000000001,0.0));
#134=VERTEX_POINT('',#133);
#135=CARTESIAN_POINT('',(-32.0,2.500000000000001,0.0));
#136=DIRECTION('',(0.258819045102515,-0.965925826289070,0.0));
#137=VECTOR('',#136,0.517638090205045);
#138=LINE('',#135,#137);
#139=EDGE_CURVE('',#134,#92,#138,.T.);
#140=ORIENTED_EDGE('',*,*,#139,.F.);
#141=CARTESIAN_POINT('',(-31.999999999999996,-2.500000000000001,3.061516E-016));
#142=VERTEX_POINT('',#141);
#143=CARTESIAN_POINT('',(-32.0,0.0,0.0));
#144=DIRECTION('',(1.0,0.0,0.0));
#145=DIRECTION('',(0.0,1.0,0.0));
#146=AXIS2_PLACEMENT_3D('',#143,#144,#145);
#147=CIRCLE('',#146,2.500000000000001);
#148=EDGE_CURVE('',#134,#142,#147,.T.);
#149=ORIENTED_EDGE('',*,*,#148,.T.);
#150=CARTESIAN_POINT('',(-31.866025403784441,-1.999999999999997,2.449213E-016));
#151=DIRECTION('',(-0.258819045102508,-0.965925826289072,1.182879E-016));
#152=VECTOR('',#151,0.517638090205044);
#153=LINE('',#150,#152);
#154=EDGE_CURVE('',#102,#142,#153,.T.);
#155=ORIENTED_EDGE('',*,*,#154,.F.);
#156=ORIENTED_EDGE('',*,*,#108,.F.);
#157=EDGE_LOOP('',(#140,#149,#155,#156));
#158=FACE_OUTER_BOUND('',#157,.T.);
#159=ADVANCED_FACE('',(#158),#132,.T.);
#160=CARTESIAN_POINT('',(-36.850000000000001,0.0,0.0));
#161=DIRECTION('',(1.0,0.0,0.0));
#162=DIRECTION('',(0.0,1.0,0.0));
#163=AXIS2_PLACEMENT_3D('',#160,#161,#162);
#164=CYLINDRICAL_SURFACE('',#163,2.500000000000000);
#165=CARTESIAN_POINT('',(-41.700000000000003,2.500000000000000,0.0));
#166=VERTEX_POINT('',#165);
#167=CARTESIAN_POINT('',(-41.700000000000003,2.500000000000000,0.0));
#168=DIRECTION('',(1.0,0.0,0.0));
#169=VECTOR('',#168,9.700000000000003);
#170=LINE('',#167,#169);
#171=EDGE_CURVE('',#166,#134,#170,.T.);
#172=ORIENTED_EDGE('',*,*,#171,.F.);
#173=CARTESIAN_POINT('',(-41.700000000000003,-2.500000000000000,3.061516E-016));
#174=VERTEX_POINT('',#173);
#175=CARTESIAN_POINT('',(-41.700000000000003,0.0,0.0));
#176=DIRECTION('',(1.0,0.0,0.0));
#177=DIRECTION('',(0.0,1.0,0.0));
#178=AXIS2_PLACEMENT_3D('',#175,#176,#177);
#179=CIRCLE('',#178,2.500000000000000);
#180=EDGE_CURVE('',#166,#174,#179,.T.);
#181=ORIENTED_EDGE('',*,*,#180,.T.);
#182=CARTESIAN_POINT('',(-31.999999999999996,-2.500000000000001,3.061516E-016));
#183=DIRECTION('',(-1.0,0.0,0.0));
#184=VECTOR('',#183,9.700000000000006);
#185=LINE('',#182,#184);
#186=EDGE_CURVE('',#142,#174,#185,.T.);
#187=ORIENTED_EDGE('',*,*,#186,.F.);
#188=ORIENTED_EDGE('',*,*,#148,.F.);
#189=EDGE_LOOP('',(#172,#181,#187,#188));
#190=FACE_OUTER_BOUND('',#189,.T.);
#191=ADVANCED_FACE('',(#190),#164,.T.);
#192=CARTESIAN_POINT('',(-41.850000000000009,0.0,0.0));
#193=DIRECTION('',(1.0,0.0,0.0));
#194=DIRECTION('',(0.0,1.0,0.0));
#195=AXIS2_PLACEMENT_3D('',#192,#193,#194);
#196=CONICAL_SURFACE('',#195,2.349999999999997,44.999999999999396);
#197=CARTESIAN_POINT('',(-42.000000000000014,2.199999999999995,0.0));
#198=VERTEX_POINT('',#197);
#199=CARTESIAN_POINT('',(-42.000000000000014,2.199999999999995,0.0));
#200=DIRECTION('',(0.707106781186555,0.707106781186540,0.0));
#201=VECTOR('',#200,0.424264068711940);
#202=LINE('',#199,#201);
#203=EDGE_CURVE('',#198,#166,#202,.T.);
#204=ORIENTED_EDGE('',*,*,#203,.F.);
#205=CARTESIAN_POINT('',(-42.000000000000014,-2.199999999999995,2.694134E-016));
#206=VERTEX_POINT('',#205);
#207=CARTESIAN_POINT('',(-42.000000000000014,0.0,0.0));
#208=DIRECTION('',(1.0,0.0,0.0));
#209=DIRECTION('',(0.0,1.0,0.0));
#210=AXIS2_PLACEMENT_3D('',#207,#208,#209);
#211=CIRCLE('',#210,2.199999999999995);
#212=EDGE_CURVE('',#198,#206,#211,.T.);
#213=ORIENTED_EDGE('',*,*,#212,.T.);
#214=CARTESIAN_POINT('',(-41.700000000000003,-2.500000000000000,3.061516E-016));
#215=DIRECTION('',(-0.707106781186555,0.707106781186540,-8.659275E-017));
#216=VECTOR('',#215,0.424264068711940);
#217=LINE('',#214,#216);
#218=EDGE_CURVE('',#174,#206,#217,.T.);
#219=ORIENTED_EDGE('',*,*,#218,.F.);
#220=ORIENTED_EDGE('',*,*,#180,.F.);
#221=EDGE_LOOP('',(#204,#213,#219,#220));
#222=FACE_OUTER_BOUND('',#221,.T.);
#223=ADVANCED_FACE('',(#222),#196,.T.);
#224=CARTESIAN_POINT('',(-7.949999999999999,0.0,0.0));
#225=DIRECTION('',(1.0,0.0,0.0));
#226=DIRECTION('',(0.0,1.0,0.0));
#227=AXIS2_PLACEMENT_3D('',#224,#225,#226);
#228=CYLINDRICAL_SURFACE('',#227,3.999999999999998);
#229=CARTESIAN_POINT('',(-3.0,3.999999999999998,-4.898425E-016));
#230=VERTEX_POINT('',#229);
#231=CARTESIAN_POINT('',(-15.400000000000002,3.999999999999995,0.0));
#232=DIRECTION('',(1.0,0.0,0.0));
#233=VECTOR('',#232,12.400000000000002);
#234=LINE('',#231,#233);
#235=EDGE_CURVE('',#52,#230,#234,.T.);
#236=ORIENTED_EDGE('',*,*,#235,.F.);
#237=ORIENTED_EDGE('',*,*,#81,.T.);
#238=CARTESIAN_POINT('',(-3.0,-3.999999999999998,4.898425E-016));
#239=VERTEX_POINT('',#238);
#240=CARTESIAN_POINT('',(-3.0,-3.999999999999998,4.898425E-016));
#241=DIRECTION('',(-1.0,0.0,0.0));
#242=VECTOR('',#241,12.400000000000002);
#243=LINE('',#240,#242);
#244=EDGE_CURVE('',#239,#69,#243,.T.);
#245=ORIENTED_EDGE('',*,*,#244,.F.);
#246=CARTESIAN_POINT('',(-3.000000000000000,-3.872983346207415,1.000000000000000));
#247=VERTEX_POINT('',#246);
#248=CARTESIAN_POINT('',(-3.000000000000000,0.0,0.0));
#249=DIRECTION('',(-1.0,0.0,0.0));
#250=DIRECTION('',(0.0,1.0,0.0));
#251=AXIS2_PLACEMENT_3D('',#248,#249,#250);
#252=CIRCLE('',#251,3.999999999999998);
#253=EDGE_CURVE('',#239,#247,#252,.T.);
#254=ORIENTED_EDGE('',*,*,#253,.T.);
#255=CARTESIAN_POINT('',(-0.499999999999998,-3.872983346207419,1.000000000000000));
#256=VERTEX_POINT('',#255);
#257=CARTESIAN_POINT('',(-3.000000000000000,-3.872983346207415,1.000000000000000));
#258=DIRECTION('',(1.0,0.0,0.0));
#259=VECTOR('',#258,2.500000000000002);
#260=LINE('',#257,#259);
#261=EDGE_CURVE('',#247,#256,#260,.T.);
#262=ORIENTED_EDGE('',*,*,#261,.T.);
#263=CARTESIAN_POINT('',(-0.499999999999998,3.872983346207419,1.000000000000000));
#264=VERTEX_POINT('',#263);
#265=CARTESIAN_POINT('',(-0.499999999999998,0.0,0.0));
#266=DIRECTION('',(1.0,0.0,0.0));
#267=DIRECTION('',(0.0,1.0,0.0));
#268=AXIS2_PLACEMENT_3D('',#265,#266,#267);
#269=CIRCLE('',#268,4.000000000000002);
#270=EDGE_CURVE('',#264,#256,#269,.T.);
#271=ORIENTED_EDGE('',*,*,#270,.F.);
#272=CARTESIAN_POINT('',(-3.000000000000000,3.872983346207415,1.000000000000000));
#273=VERTEX_POINT('',#272);
#274=CARTESIAN_POINT('',(-0.499999999999998,3.872983346207419,1.000000000000000));
#275=DIRECTION('',(-1.0,0.0,0.0));
#276=VECTOR('',#275,2.500000000000002);
#277=LINE('',#274,#276);
#278=EDGE_CURVE('',#264,#273,#277,.T.);
#279=ORIENTED_EDGE('',*,*,#278,.T.);
#280=CARTESIAN_POINT('',(-3.000000000000000,0.0,0.0));
#281=DIRECTION('',(-1.0,0.0,0.0));
#282=DIRECTION('',(0.0,1.0,0.0));
#283=AXIS2_PLACEMENT_3D('',#280,#281,#282);
#284=CIRCLE('',#283,3.999999999999998);
#285=EDGE_CURVE('',#273,#230,#284,.T.);
#286=ORIENTED_EDGE('',*,*,#285,.T.);
#287=EDGE_LOOP('',(#236,#237,#245,#254,#262,#271,#279,#286));
#288=FACE_OUTER_BOUND('',#287,.T.);
#289=ADVANCED_FACE('',(#288),#228,.T.);
#290=CARTESIAN_POINT('',(-3.000000000000000,-2.081668E-016,-1.648803E-016));
#291=DIRECTION('',(1.0,0.0,0.0));
#292=DIRECTION('',(0.0,0.0,-1.0));
#293=AXIS2_PLACEMENT_3D('',#290,#291,#292);
#294=PLANE('',#293);
#295=CARTESIAN_POINT('',(-3.000000000000000,-3.872983346207415,-1.000000000000000));
#296=VERTEX_POINT('',#295);
#297=CARTESIAN_POINT('',(-3.000000000000000,0.0,0.0));
#298=DIRECTION('',(-1.0,0.0,0.0));
#299=DIRECTION('',(0.0,1.0,0.0));
#300=AXIS2_PLACEMENT_3D('',#297,#298,#299);
#301=CIRCLE('',#300,3.999999999999998);
#302=EDGE_CURVE('',#296,#239,#301,.T.);
#303=ORIENTED_EDGE('',*,*,#302,.F.);
#304=CARTESIAN_POINT('',(-3.000000000000000,3.872983346207415,-1.000000000000000));
#305=VERTEX_POINT('',#304);
#306=CARTESIAN_POINT('',(-3.000000000000000,-3.872983346207415,-1.000000000000000));
#307=DIRECTION('',(0.0,1.0,0.0));
#308=VECTOR('',#307,7.745966692414830);
#309=LINE('',#306,#308);
#310=EDGE_CURVE('',#296,#305,#309,.T.);
#311=ORIENTED_EDGE('',*,*,#310,.T.);
#312=CARTESIAN_POINT('',(-3.000000000000000,0.0,0.0));
#313=DIRECTION('',(-1.0,0.0,0.0));
#314=DIRECTION('',(0.0,1.0,0.0));
#315=AXIS2_PLACEMENT_3D('',#312,#313,#314);
#316=CIRCLE('',#315,3.999999999999998);
#317=EDGE_CURVE('',#230,#305,#316,.T.);
#318=ORIENTED_EDGE('',*,*,#317,.F.);
#319=ORIENTED_EDGE('',*,*,#285,.F.);
#320=CARTESIAN_POINT('',(-3.000000000000000,3.872983346207415,1.000000000000000));
#321=DIRECTION('',(0.0,-1.0,0.0));
#322=VECTOR('',#321,7.745966692414830);
#323=LINE('',#320,#322);
#324=EDGE_CURVE('',#273,#247,#323,.T.);
#325=ORIENTED_EDGE('',*,*,#324,.T.);
#326=ORIENTED_EDGE('',*,*,#253,.F.);
#327=EDGE_LOOP('',(#303,#311,#318,#319,#325,#326));
#328=FACE_OUTER_BOUND('',#327,.T.);
#329=ADVANCED_FACE('',(#328),#294,.T.);
#330=CARTESIAN_POINT('',(0.0,6.250000000000000,1.000000000000000));
#331=DIRECTION('',(0.0,0.0,1.0));
#332=DIRECTION('',(1.0,0.0,0.0));
#333=AXIS2_PLACEMENT_3D('',#330,#331,#332);
#334=PLANE('',#333);
#335=ORIENTED_EDGE('',*,*,#261,.F.);
#336=ORIENTED_EDGE('',*,*,#324,.F.);
#337=ORIENTED_EDGE('',*,*,#278,.F.);
#338=CARTESIAN_POINT('',(-3.469447E-017,3.354101966249682,1.000000000000000));
#339=VERTEX_POINT('',#338);
#340=CARTESIAN_POINT('',(-3.469447E-017,3.354101966249682,1.000000000000000));
#341=CARTESIAN_POINT('',(-0.232050807569035,3.596246610230121,1.000000000000000));
#342=CARTESIAN_POINT('',(-0.499999999999998,3.872983346207413,1.000000000000000));
#350=(BOUNDED_CURVE()B_SPLINE_CURVE(2,(#340,#341,#342),.UNSPECIFIED.,.F.,.U.)B_SPLINE_CURVE_WITH_KNOTS((3,3),(0.0,0.072058222462611),.UNSPECIFIED.)CURVE()GEOMETRIC_REPRESENTATION_ITEM()RATIONAL_B_SPLINE_CURVE((1.0,1.002401851364245,1.0))REPRESENTATION_ITEM(''));
#351=EDGE_CURVE('',#339,#264,#350,.T.);
#352=ORIENTED_EDGE('',*,*,#351,.F.);
#353=CARTESIAN_POINT('',(-3.469447E-017,-3.354101966249682,1.000000000000000));
#354=VERTEX_POINT('',#353);
#355=CARTESIAN_POINT('',(-3.469447E-017,-3.354101966249682,1.000000000000000));
#356=DIRECTION('',(0.0,1.0,0.0));
#357=VECTOR('',#356,6.708203932499364);
#358=LINE('',#355,#357);
#359=EDGE_CURVE('',#354,#339,#358,.T.);
#360=ORIENTED_EDGE('',*,*,#359,.F.);
#361=CARTESIAN_POINT('',(-0.499999999999998,-3.872983346207413,1.000000000000000));
#362=CARTESIAN_POINT('',(-0.232050807569035,-3.596246610230121,1.000000000000000));
#363=CARTESIAN_POINT('',(-3.469447E-017,-3.354101966249682,1.000000000000000));
#371=(BOUNDED_CURVE()B_SPLINE_CURVE(2,(#361,#362,#363),.UNSPECIFIED.,.F.,.U.)B_SPLINE_CURVE_WITH_KNOTS((3,3),(0.0,0.072058222462611),.UNSPECIFIED.)CURVE()GEOMETRIC_REPRESENTATION_ITEM()RATIONAL_B_SPLINE_CURVE((1.0,1.002401851364245,1.0))REPRESENTATION_ITEM(''));
#372=EDGE_CURVE('',#256,#354,#371,.T.);
#373=ORIENTED_EDGE('',*,*,#372,.F.);
#374=EDGE_LOOP('',(#335,#336,#337,#352,#360,#373));
#375=FACE_OUTER_BOUND('',#374,.T.);
#376=ADVANCED_FACE('',(#375),#334,.F.);
#377=CARTESIAN_POINT('',(0.0,-6.250000000000000,-1.000000000000000));
#378=DIRECTION('',(0.0,0.0,-1.0));
#379=DIRECTION('',(-1.0,0.0,0.0));
#380=AXIS2_PLACEMENT_3D('',#377,#378,#379);
#381=PLANE('',#380);
#382=CARTESIAN_POINT('',(-0.499999999999998,-3.872983346207418,-1.000000000000000));
#383=VERTEX_POINT('',#382);
#384=CARTESIAN_POINT('',(-0.499999999999998,-3.872983346207418,-1.000000000000000));
#385=DIRECTION('',(-1.0,0.0,0.0));
#386=VECTOR('',#385,2.500000000000002);
#387=LINE('',#384,#386);
#388=EDGE_CURVE('',#383,#296,#387,.T.);
#389=ORIENTED_EDGE('',*,*,#388,.F.);
#390=CARTESIAN_POINT('',(-3.469447E-017,-3.354101966249682,-1.000000000000000));
#391=VERTEX_POINT('',#390);
#392=CARTESIAN_POINT('',(-3.469447E-017,-3.354101966249682,-1.000000000000000));
#393=CARTESIAN_POINT('',(-0.232050807567381,-3.596246610228403,-1.000000000000000));
#394=CARTESIAN_POINT('',(-0.499999999999998,-3.872983346207413,-1.000000000000000));
#402=(BOUNDED_CURVE()B_SPLINE_CURVE(2,(#392,#393,#394),.UNSPECIFIED.,.F.,.U.)B_SPLINE_CURVE_WITH_KNOTS((3,3),(0.0,0.072058222462611),.UNSPECIFIED.)CURVE()GEOMETRIC_REPRESENTATION_ITEM()RATIONAL_B_SPLINE_CURVE((1.0,1.002401851364454,1.0))REPRESENTATION_ITEM(''));
#403=EDGE_CURVE('',#391,#383,#402,.T.);
#404=ORIENTED_EDGE('',*,*,#403,.F.);
#405=CARTESIAN_POINT('',(-1.040834E-016,3.354101966249682,-1.000000000000000));
#406=VERTEX_POINT('',#405);
#407=CARTESIAN_POINT('',(-1.040834E-016,3.354101966249682,-1.000000000000000));
#408=DIRECTION('',(0.0,-1.0,0.0));
#409=VECTOR('',#408,6.708203932499364);
#410=LINE('',#407,#409);
#411=EDGE_CURVE('',#406,#391,#410,.T.);
#412=ORIENTED_EDGE('',*,*,#411,.F.);
#413=CARTESIAN_POINT('',(-0.499999999999998,3.872983346207418,-1.000000000000000));
#414=VERTEX_POINT('',#413);
#415=CARTESIAN_POINT('',(-0.499999999999998,3.872983346207413,-1.000000000000000));
#416=CARTESIAN_POINT('',(-0.232050807567367,3.596246610228389,-1.000000000000000));
#417=CARTESIAN_POINT('',(-3.469447E-017,3.354101966249682,-1.000000000000000));
#425=(BOUNDED_CURVE()B_SPLINE_CURVE(2,(#415,#416,#417),.UNSPECIFIED.,.F.,.U.)B_SPLINE_CURVE_WITH_KNOTS((3,3),(0.0,0.072058222462611),.UNSPECIFIED.)CURVE()GEOMETRIC_REPRESENTATION_ITEM()RATIONAL_B_SPLINE_CURVE((1.0,1.002401851364044,1.0))REPRESENTATION_ITEM(''));
#426=EDGE_CURVE('',#414,#406,#425,.T.);
#427=ORIENTED_EDGE('',*,*,#426,.F.);
#428=CARTESIAN_POINT('',(-3.000000000000000,3.872983346207415,-1.000000000000000));
#429=DIRECTION('',(1.0,0.0,0.0));
#430=VECTOR('',#429,2.500000000000002);
#431=LINE('',#428,#430);
#432=EDGE_CURVE('',#305,#414,#431,.T.);
#433=ORIENTED_EDGE('',*,*,#432,.F.);
#434=ORIENTED_EDGE('',*,*,#310,.F.);
#435=EDGE_LOOP('',(#389,#404,#412,#427,#433,#434));
#436=FACE_OUTER_BOUND('',#435,.T.);
#437=ADVANCED_FACE('',(#436),#381,.F.);
#438=CARTESIAN_POINT('',(-7.949999999999999,0.0,0.0));
#439=DIRECTION('',(1.0,0.0,0.0));
#440=DIRECTION('',(0.0,1.0,0.0));
#441=AXIS2_PLACEMENT_3D('',#438,#439,#440);
#442=CYLINDRICAL_SURFACE('',#441,3.999999999999998);
#443=ORIENTED_EDGE('',*,*,#235,.T.);
#444=ORIENTED_EDGE('',*,*,#317,.T.);
#445=ORIENTED_EDGE('',*,*,#432,.T.);
#446=CARTESIAN_POINT('',(-0.499999999999998,0.0,0.0));
#447=DIRECTION('',(1.0,0.0,0.0));
#448=DIRECTION('',(0.0,1.0,0.0));
#449=AXIS2_PLACEMENT_3D('',#446,#447,#448);
#450=CIRCLE('',#449,4.000000000000002);
#451=EDGE_CURVE('',#383,#414,#450,.T.);
#452=ORIENTED_EDGE('',*,*,#451,.F.);
#453=ORIENTED_EDGE('',*,*,#388,.T.);
#454=ORIENTED_EDGE('',*,*,#302,.T.);
#455=ORIENTED_EDGE('',*,*,#244,.T.);
#456=CARTESIAN_POINT('',(-15.400000000000000,0.0,0.0));
#457=DIRECTION('',(1.0,0.0,0.0));
#458=DIRECTION('',(0.0,1.0,0.0));
#459=AXIS2_PLACEMENT_3D('',#456,#457,#458);
#460=CIRCLE('',#459,3.999999999999995);
#461=EDGE_CURVE('',#69,#52,#460,.T.);
#462=ORIENTED_EDGE('',*,*,#461,.T.);
#463=EDGE_LOOP('',(#443,#444,#445,#452,#453,#454,#455,#462));
#464=FACE_OUTER_BOUND('',#463,.T.);
#465=ADVANCED_FACE('',(#464),#442,.T.);
#466=CARTESIAN_POINT('',(-3.214592E-016,1.750000000000001,0.0));
#467=DIRECTION('',(1.0,0.0,0.0));
#468=DIRECTION('',(0.0,0.0,-1.0));
#469=AXIS2_PLACEMENT_3D('',#466,#467,#468);
#470=PLANE('',#469);
#471=ORIENTED_EDGE('',*,*,#359,.T.);
#472=CARTESIAN_POINT('',(0.0,0.0,0.0));
#473=DIRECTION('',(1.0,0.0,0.0));
#474=DIRECTION('',(0.0,1.0,0.0));
#475=AXIS2_PLACEMENT_3D('',#472,#473,#474);
#476=CIRCLE('',#475,3.500000000000001);
#477=EDGE_CURVE('',#339,#354,#476,.T.);
#478=ORIENTED_EDGE('',*,*,#477,.T.);
#479=EDGE_LOOP('',(#471,#478));
#480=FACE_OUTER_BOUND('',#479,.T.);
#481=ADVANCED_FACE('',(#480),#470,.T.);
#482=CARTESIAN_POINT('',(-3.214592E-016,1.750000000000001,0.0));
#483=DIRECTION('',(1.0,0.0,0.0));
#484=DIRECTION('',(0.0,0.0,-1.0));
#485=AXIS2_PLACEMENT_3D('',#482,#483,#484);
#486=PLANE('',#485);
#487=ORIENTED_EDGE('',*,*,#411,.T.);
#488=CARTESIAN_POINT('',(0.0,0.0,0.0));
#489=DIRECTION('',(1.0,0.0,0.0));
#490=DIRECTION('',(0.0,1.0,0.0));
#491=AXIS2_PLACEMENT_3D('',#488,#489,#490);
#492=CIRCLE('',#491,3.500000000000001);
#493=EDGE_CURVE('',#391,#406,#492,.T.);
#494=ORIENTED_EDGE('',*,*,#493,.T.);
#495=EDGE_LOOP('',(#487,#494));
#496=FACE_OUTER_BOUND('',#495,.T.);
#497=ADVANCED_FACE('',(#496),#486,.T.);
#498=CARTESIAN_POINT('',(-0.250000000000004,0.0,0.0));
#499=DIRECTION('',(-1.0,0.0,0.0));
#500=DIRECTION('',(0.0,1.0,0.0));
#501=AXIS2_PLACEMENT_3D('',#498,#499,#500);
#502=CONICAL_SURFACE('',#501,3.750000000000001,45.0);
#503=ORIENTED_EDGE('',*,*,#372,.T.);
#504=ORIENTED_EDGE('',*,*,#477,.F.);
#505=ORIENTED_EDGE('',*,*,#351,.T.);
#506=ORIENTED_EDGE('',*,*,#270,.T.);
#507=EDGE_LOOP('',(#503,#504,#505,#506));
#508=FACE_OUTER_BOUND('',#507,.T.);
#509=ADVANCED_FACE('',(#508),#502,.T.);
#510=CARTESIAN_POINT('',(-42.000000000000014,1.099999999999997,0.0));
#511=DIRECTION('',(-1.0,0.0,0.0));
#512=DIRECTION('',(0.0,0.0,1.0));
#513=AXIS2_PLACEMENT_3D('',#510,#511,#512);
#514=PLANE('',#513);
#515=ORIENTED_EDGE('',*,*,#212,.F.);
#516=CARTESIAN_POINT('',(-42.000000000000014,0.0,0.0));
#517=DIRECTION('',(1.0,0.0,0.0));
#518=DIRECTION('',(0.0,1.0,0.0));
#519=AXIS2_PLACEMENT_3D('',#516,#517,#518);
#520=CIRCLE('',#519,2.199999999999995);
#521=EDGE_CURVE('',#206,#198,#520,.T.);
#522=ORIENTED_EDGE('',*,*,#521,.F.);
#523=EDGE_LOOP('',(#515,#522));
#524=FACE_OUTER_BOUND('',#523,.T.);
#525=ADVANCED_FACE('',(#524),#514,.T.);
#526=CARTESIAN_POINT('',(-41.850000000000009,0.0,0.0));
#527=DIRECTION('',(1.0,0.0,0.0));
#528=DIRECTION('',(0.0,1.0,0.0));
#529=AXIS2_PLACEMENT_3D('',#526,#527,#528);
#530=CONICAL_SURFACE('',#529,2.349999999999997,44.999999999999396);
#531=ORIENTED_EDGE('',*,*,#203,.T.);
#532=CARTESIAN_POINT('',(-41.700000000000003,0.0,0.0));
#533=DIRECTION('',(1.0,0.0,0.0));
#534=DIRECTION('',(0.0,1.0,0.0));
#535=AXIS2_PLACEMENT_3D('',#532,#533,#534);
#536=CIRCLE('',#535,2.500000000000000);
#537=EDGE_CURVE('',#174,#166,#536,.T.);
#538=ORIENTED_EDGE('',*,*,#537,.F.);
#539=ORIENTED_EDGE('',*,*,#218,.T.);
#540=ORIENTED_EDGE('',*,*,#521,.T.);
#541=EDGE_LOOP('',(#531,#538,#539,#540));
#542=FACE_OUTER_BOUND('',#541,.T.);
#543=ADVANCED_FACE('',(#542),#530,.T.);
#544=CARTESIAN_POINT('',(-36.850000000000001,0.0,0.0));
#545=DIRECTION('',(1.0,0.0,0.0));
#546=DIRECTION('',(0.0,1.0,0.0));
#547=AXIS2_PLACEMENT_3D('',#544,#545,#546);
#548=CYLINDRICAL_SURFACE('',#547,2.500000000000000);
#549=ORIENTED_EDGE('',*,*,#171,.T.);
#550=CARTESIAN_POINT('',(-32.0,0.0,0.0));
#551=DIRECTION('',(1.0,0.0,0.0));
#552=DIRECTION('',(0.0,1.0,0.0));
#553=AXIS2_PLACEMENT_3D('',#550,#551,#552);
#554=CIRCLE('',#553,2.500000000000001);
#555=EDGE_CURVE('',#142,#134,#554,.T.);
#556=ORIENTED_EDGE('',*,*,#555,.F.);
#557=ORIENTED_EDGE('',*,*,#186,.T.);
#558=ORIENTED_EDGE('',*,*,#537,.T.);
#559=EDGE_LOOP('',(#549,#556,#557,#558));
#560=FACE_OUTER_BOUND('',#559,.T.);
#561=ADVANCED_FACE('',(#560),#548,.T.);
#562=CARTESIAN_POINT('',(-31.933012701892221,0.0,0.0));
#563=DIRECTION('',(-1.0,0.0,0.0));
#564=DIRECTION('',(0.0,1.0,0.0));
#565=AXIS2_PLACEMENT_3D('',#562,#563,#564);
#566=CONICAL_SURFACE('',#565,2.249999999999999,75.000000000000014);
#567=ORIENTED_EDGE('',*,*,#139,.T.);
#568=CARTESIAN_POINT('',(-31.866025403784441,0.0,0.0));
#569=DIRECTION('',(1.0,0.0,0.0));
#570=DIRECTION('',(0.0,1.0,0.0));
#571=AXIS2_PLACEMENT_3D('',#568,#569,#570);
#572=CIRCLE('',#571,1.999999999999997);
#573=EDGE_CURVE('',#102,#92,#572,.T.);
#574=ORIENTED_EDGE('',*,*,#573,.F.);
#575=ORIENTED_EDGE('',*,*,#154,.T.);
#576=ORIENTED_EDGE('',*,*,#555,.T.);
#577=EDGE_LOOP('',(#567,#574,#575,#576));
#578=FACE_OUTER_BOUND('',#577,.T.);
#579=ADVANCED_FACE('',(#578),#566,.T.);
#580=CARTESIAN_POINT('',(-23.783012701892222,0.0,0.0));
#581=DIRECTION('',(1.0,0.0,0.0));
#582=DIRECTION('',(0.0,1.0,0.0));
#583=AXIS2_PLACEMENT_3D('',#580,#581,#582);
#584=CYLINDRICAL_SURFACE('',#583,2.0);
#585=ORIENTED_EDGE('',*,*,#99,.T.);
#586=CARTESIAN_POINT('',(-15.700000000000003,0.0,0.0));
#587=DIRECTION('',(1.0,0.0,0.0));
#588=DIRECTION('',(0.0,1.0,0.0));
#589=AXIS2_PLACEMENT_3D('',#586,#587,#588);
#590=CIRCLE('',#589,2.000000000000003);
#591=EDGE_CURVE('',#111,#94,#590,.T.);
#592=ORIENTED_EDGE('',*,*,#591,.F.);
#593=ORIENTED_EDGE('',*,*,#116,.T.);
#594=ORIENTED_EDGE('',*,*,#573,.T.);
#595=EDGE_LOOP('',(#585,#592,#593,#594));
#596=FACE_OUTER_BOUND('',#595,.T.);
#597=ADVANCED_FACE('',(#596),#584,.T.);
#598=CARTESIAN_POINT('',(-15.700000000000003,2.849999999999999,0.0));
#599=DIRECTION('',(-1.0,0.0,0.0));
#600=DIRECTION('',(0.0,0.0,1.0));
#601=AXIS2_PLACEMENT_3D('',#598,#599,#600);
#602=PLANE('',#601);
#603=ORIENTED_EDGE('',*,*,#66,.F.);
#604=CARTESIAN_POINT('',(-15.700000000000003,0.0,0.0));
#605=DIRECTION('',(1.0,0.0,0.0));
#606=DIRECTION('',(0.0,1.0,0.0));
#607=AXIS2_PLACEMENT_3D('',#604,#605,#606);
#608=CIRCLE('',#607,3.699999999999996);
#609=EDGE_CURVE('',#60,#50,#608,.T.);
#610=ORIENTED_EDGE('',*,*,#609,.F.);
#611=EDGE_LOOP('',(#603,#610));
#612=FACE_OUTER_BOUND('',#611,.T.);
#613=ORIENTED_EDGE('',*,*,#123,.T.);
#614=ORIENTED_EDGE('',*,*,#591,.T.);
#615=EDGE_LOOP('',(#613,#614));
#616=FACE_BOUND('',#615,.T.);
#617=ADVANCED_FACE('',(#612,#616),#602,.T.);
#618=CARTESIAN_POINT('',(-15.550000000000001,0.0,0.0));
#619=DIRECTION('',(1.0,0.0,0.0));
#620=DIRECTION('',(0.0,1.0,0.0));
#621=AXIS2_PLACEMENT_3D('',#618,#619,#620);
#622=CONICAL_SURFACE('',#621,3.849999999999995,44.999999999999901);
#623=ORIENTED_EDGE('',*,*,#57,.T.);
#624=ORIENTED_EDGE('',*,*,#461,.F.);
#625=ORIENTED_EDGE('',*,*,#74,.T.);
#626=ORIENTED_EDGE('',*,*,#609,.T.);
#627=EDGE_LOOP('',(#623,#624,#625,#626));
#628=FACE_OUTER_BOUND('',#627,.T.);
#629=ADVANCED_FACE('',(#628),#622,.T.);
#630=CARTESIAN_POINT('',(-0.250000000000004,0.0,0.0));
#631=DIRECTION('',(-1.0,0.0,0.0));
#632=DIRECTION('',(0.0,1.0,0.0));
#633=AXIS2_PLACEMENT_3D('',#630,#631,#632);
#634=CONICAL_SURFACE('',#633,3.750000000000001,45.0);
#635=ORIENTED_EDGE('',*,*,#403,.T.);
#636=ORIENTED_EDGE('',*,*,#451,.T.);
#637=ORIENTED_EDGE('',*,*,#426,.T.);
#638=ORIENTED_EDGE('',*,*,#493,.F.);
#639=EDGE_LOOP('',(#635,#636,#637,#638));
#640=FACE_OUTER_BOUND('',#639,.T.);
#641=ADVANCED_FACE('',(#640),#634,.T.);
#642=CLOSED_SHELL('',(#85,#127,#159,#191,#223,#289,#329,#376,#437,#465,#481,#497,#509,#525,#543,#561,#579,#597,#617,#629,#641));
#643=MANIFOLD_SOLID_BREP('',#642);
#644=COLOUR_RGB('Zink',0.678431391716003,0.768627464771271,0.811764717102051);
#645=FILL_AREA_STYLE_COLOUR('Zink',#644);
#646=FILL_AREA_STYLE('Zink',(#645));
#647=SURFACE_STYLE_FILL_AREA(#646);
#648=SURFACE_SIDE_STYLE('Zink',(#647));
#649=SURFACE_STYLE_USAGE(.BOTH.,#648);
#650=PRESENTATION_STYLE_ASSIGNMENT((#649));
#651=STYLED_ITEM('',(#650),#643);
#652=MECHANICAL_DESIGN_GEOMETRIC_PRESENTATION_REPRESENTATION('',(#651),#36);
#653=ADVANCED_BREP_SHAPE_REPRESENTATION('ABSR',(#643),#36);
#654=SHAPE_REPRESENTATION_RELATIONSHIP('SRR','None',#653,#41);
ENDSEC;
END-ISO-10303-21;
